Аккорды песен - Ищу музыкантов | MuzLK - Социальная сеть для музыкантов

ZZ Top - Woke Up With Wood
Исполнитель
Название песни
Woke Up With Wood
e|--------------8--------------8----------8---------------------------------|
B|----11b--------11-8--------8---11b--------11-8------8---------------------|
G|--------------------10b--------------

----------10b------------------------| D|-------------------------------------------------------10-----8--8--------| A|---------------------------------------------------------------10-10/8----| E|--------------------------------------------------------------------------| e|----------------------------------8-----------8------8--------------------| B|-------------------------11b-------11-8------8-11b-----11-8--------8------| G|----------------------------------------10b-----------------10b-----------| D|-----------------1----------------------------------------------------10--| A|-6-----------1-3---3------------------------------------------------------| E|---8-8-----3--------------------------------------------------------------| e|--------------------------------------------------------------------------| B|--------------------------------------------------------------------------| G|--------------------------------------------------------------------------| D|-8--8--------------1------------------------------------------------------| A|--10-10/8-6-------3-1-3-3-1-----------------------------------------------| E|------------8-8-----------------------------------------------------------|
Пожалуйста, войдите на сайт или зарегистрируйтесь, чтобы написать сообщение.
ZZ Top - Woke Up With Wood
Исполнитель
Название песни
Woke Up With Wood
intro lead riff repeat 4X
|--(8)---------------------------(8)-------------------|
|--------8-------------------------------8-------------|
|---------10--8--------------8------------10--8--------|
|----------------10~~~-------8-------------------10~~~-|
|------------------------8h10--------------------------|
|------------------------------------------------------|

4x |--------------------------------|------------------------------------------ |--------------------------------|---8------------------8------------------- |-------------8-----8---10-------|---8-10--------10-----8-10--------10------ |-------10----8-----8---10-------|-----10----10--10-------10----10--10------ |--------10----------------------|-----------10-----------------10---------- |--------------------------------|------------------------------------------ "When I woke up this mornin.." ---------------------- ---------------------- --------8---10---10--- ---10---8---10---10---Solo.. ---10----------------- ----------------------
Пожалуйста, войдите на сайт или зарегистрируйтесь, чтобы написать сообщение.
ZZ Top - Waitin For The Bus
Исполнитель
Название песни
Waitin For The Bus
#----------------------------------PLEASE NOTE---------------------------------#
#This file is the author's own work and represents their interpretation of the #
#song. You may only use this file for private study, scholarship, or research.

# #------------------------------------------------------------------------------## From: jhalonen@ix.netcom.com (John Halonen ) Good Old Rocker From ZZ Top Waitin For The Bus -------------------------------------------------------------------------
Пожалуйста, войдите на сайт или зарегистрируйтесь, чтобы написать сообщение.
ZZ Top - Wait In For The Bus
Исполнитель
Название песни
Wait In For The Bus
#
From: jhalonen@ix.netcom.com (John Halonen	)
Good Old Rocker From ZZ Top

Waitin For The Bus
-------------------------------------------------------------------------
Пожалуйста, войдите на сайт или зарегистрируйтесь, чтобы написать сообщение.
ZZ Top - Viva Las Vegas
Исполнитель
Название песни
Viva Las Vegas
-------------------------------------------------------------------------------
			     Viva Las Vegas - ZZ-Top
-------------------------------------------------------------------------------

Tabbed by:Classic Rock
Email:claymathes@sbcglobal.net

Tuning:Standard Moderately Fast-120 BPM
    Rhy.Fig 1.

Synthesizer arr for guitar and 1and 2 Verses of Song E|--------------------------------------------------------------------------------| B|--------------------------------------------------------------------------------| G|--------------------------------------------------------------------------------| D|-------6-----6-------------------6-----6----------------------------------------| A|--8----4-----4--8----8----8------4-----4----------------------------------------| E|--6-------------6----6----6-----------------------------------------------------| Guitar 2 Fill over Fig 1 e|--------------------------|-----------------------------------------------------+ B|--------------------------|-----------------------------------------------------+ G|------------6-------------|-----------------------------------------------------+ D|-------X---------8~-------|---------------------X--X---X------8---8--H-----6----+ A|--X-----------------------|----10-H---8---------X--X---X------------------------+ E|--------------------------|---------------------X--X---X------------------------+ E|---------------------------------------------------------------------------------------------| B|---------------------------------------------------------------------------------------------| G|---------------------------------------------------------------------------------------------| Pre-Chorus D|3----5------5------5-----5-------X------------5-------5--------5----------3--------3---S---5-| A|3----5------5------5-----5---------X----------5-------5--------5----------1--------3---S---5-| E|--------3-------------3--------------X-----3-----------------3---------1---------1-----------| e|---------------------------------------------------------------------| B|---------------------------------------------------------------------| G|---------8-----------------------------------------------------------| Chorus D|---------8--------------8-----8--p-----6--------8-----p----6---------| A|---6-----6--------------8-----8--p-----6--------8-----p----6---------| E|------------------6-----------------------------6--------------------| e|---------------------------------------------------------------------| B|---------------------------------------------------------------------| G|---8--------------------------------------X----X---8-----------------| D|---8--------------------------------------X----X---8-----------------| Bridge A|---6--------------------------------------X----X---6-----------------| E|---------------------------------------------------------------------| | / slide up | slide down | h hammer-on | p pull-off | ~ vibrato | + harmonic | x Mute note
ZZ Top - Viva Las Vegas
Пожалуйста, войдите на сайт или зарегистрируйтесь, чтобы написать сообщение.
ZZ Top - Velcro Fly
Исполнитель
Название песни
Velcro Fly
#----------------------------------PLEASE NOTE---------------------------------#
#This file is the author's own work and represents their interpretation of the #
#song. You may only use this file for private study, scholarship, or research.

# #------------------------------------------------------------------------------## # From: maclark@halnet.com (Mark A. Clark) Subject: TAB: Velcro Fly by ZZ_Top Date: Wed, 14 Feb 1996 10:47:41 -0600 (CST) SONG: Velcro Fly ARTIST: ZZ Top ALBUM: AFTERBURNER This is the lead break from Velcro Fly as I play it... Uses lots of pick harmonics. T=76 e|----------------------------------------------------------------------------- b|-8------8---H^--------------------------------------------------------------- G|----10-----8--10----------------------P^------------------------------------- D|------------------10--8--10------8--10--8----S------------------------------- A|-----------------------------10------------10-8------8--10------------------ E|--------------------------------------------------11---------8--------------- e|-------------------------------------------------------11-------------------- b|-----------W--------x-8----P^----------------S-----11------13---------------- G|-----8--10^--8------x-8--10--8----------8--10/-12--------------12------------ D|-10-------------10--------------10--10--------------------------------------- A|----------------------------------------------------------------------------- E|----------------------------------------------------------------------------- e|----------------------------------------------------------------------------- b|-----11--------S------H^----------------------------------------------------- G|-12------12--10/-12--8--10-------------8--------------8---------------------- D|----------------------------10--8--10-----10------10------------------------- A|----------------------------------------------10----------------------------- E|----------------------------------------------------------------------------- maclark@halnet.com
Пожалуйста, войдите на сайт или зарегистрируйтесь, чтобы написать сообщение.
ZZ Top - TV Dinners
Исполнитель
Название песни
TV Dinners
Intro
----------------------|---------------------|--------------------|
-13--------------9/10-|-13-------------9/10-|-13------------9/10-|
----10--------10-9/10-|----10----------9/10-|---10-------10-9/10-|
-------12-12----------|-------12-12---------|------12-12---------|
----------------------|---------------------|--------------------|
----------------------|---------------------|--------------------|

------------------------|
-------------------9/10-|
-13b12-10----------9/10-|
-------------10h12------|
----------12------------|
------------------------|

For the rest of the song, the rhythm guitar repeats this measure:
-----------------|
-----------------|
-7-7---7---------|
-7-7---7---------|(these are, of course, D5 power chords)
-5-5---5---------|
-----------------|

After the first verse, play
--------------------|--------------------|
--------------------|--------------------|
---------------9/10-|---------------9/10-|
-12-12---12---------|-12-12---12---------|
-12-12---12---------|-12-12---12---------|
-10-10---10---------|-10-10---10---------|

and then do the second verse just like the first

The five notes of the transition require you to tune your guitar 
down, so I will skip them

--------------------|----------------|--------------|-----------------|
--------------------|----------------|--------------|-----------------|
--------------------|----------------|--------------|-----------------|
-3h5-3------3-------|------------3b5-|--------------|-------------3b--|
-------3h5----------|-5---5---5------|--5----5-5-3--|--5----5-5-5-----|
--------------5-1-|----------------|--------------|-----------------|

---------------|-------------------|----------------|-------------------|
---------------|-------------------|----------------|-------------------|
---------------|-------------------|----------------|-------------------|
-----------3---|-----3b--3b--------|-------------3b-|-------------------|
--5-5----5---3-|---5----------5--3-|--5--5----5-----|--5-5-3------------|
---------------|-------------------|----------------|--------5-5-5b6--5-|

--------------------|----------------|---------------|---------------------|
--------------------|----------------|---------------|---------------------|
--------------------|----------------|---------------|---------------------|
--------------------|-9-7-9-9--------|-------------7-|-9-------------------|
---3-5-3-5b6b5--3-5-|----------9-5-|---7-5----7----|-----------5-7-7b8b7-|
-5------------------|----------------|-7-------------|-----5-5-7-----------|

--------------------|-----------------|-------------------|
--------------------|-----------------|-------------------|
--------------------|-----------------|-------------------|
--------------------|-----------------|-------------------|
-5-7-7-5-7b8--5-7-|-5-3-5---5-5-5-5-|----3-5-3--------5-|
--------------------|-----------------|---------------1---|

start singing 3rd verse
--------------------|-----------------|-------------------|
--------------------|-----------------|-------------------|
--------------------|-----------------|-------------------|
---------3----------|-----------------|-------------------|
---5p3-5-----5--5---|---3--5--5-------|--5--------(5)p3---|
--------------------|-----------------|-------------------|

After "if the sauce in not too blue", those 5 unplayable notes 
are repeated and then go to

and they`re
--------------------|
--------------------|
--------------------|
-3h5-3--------------|
-------3h5--3-------|
--------------5-1-|

mine all mine ~~~~
--------------------|-----------------|-------------------|
--------------------|-----------------|-------------------|
--------------------|-----------------|-------------------|
-------7------------|-----------------|-------------------|
--------------------|-----------------|---------------3-5-|
--------------------|-----------------|-------------------|

and they sure are fine whoa
--------------------|-----------------|-------------------|
--------------------|-----------------|-------------------|
--------------------|-----------------|-------------5-5-7-|
--------------------|-----------------|-------------------|
------------------5-|-------------5-5-|-------------------|
-------5-----5------|--------5--------|-------------------|

gotta have em gimme some now honey
G5 F5 D5
--------------------|-----------------|-------------------|
--------------------|-----------8-8-8-|-8b9b8-6-----------|
----------------7-7-|-----------------|----------7--------|
--------------------|-----------------|-------------------|
--------------------|-----------------|-------------------|
--------------------|-----------------|-------------------|

G5 F5 D5
--------------------|-----------------|-------------------|
--------------------|-----------------|-------------------|
--------------------|-----------------|-------------------|
--------------------|---------------3-|-5-5-3-5b6---------|
---3-5-5------------|-----------------|-------------------|
--------------------|-----------------|-------------------|

G5 F5 D5 G5 F5 D5
--------------------|-----------------|-------------------|
--------------------|-----------------|-------------------|
--------------------|-----------------|-------------------|
------------------3-|-5-5-3-----------|----------------12-|
--------------------|-------5---------|-------------------|
--------------------|-----------------|-------------------|

---------------------------|-------------------10----------|
-------10----13------------|----------10-------10----------|
-10h12----10-----10-10-----|-10h11-11-11-11-11----10h11-11-|
-----------------------12--|-------------------------------|
---------------------------|-------------------------------|
---------------------------|-------------------------------|

----------10----------------|----------------------|
-10-10-10----13-13-13h14-13-|-13-13-13-13-13-13----|
-11-11-11----12-12-12----12-|-12-12-12-12-12-12-12-|
----------------------------|----------------------|
----------------------------|----------------------|
----------------------------|----------------------|

-----------------|-------------------|---------------------|
-----------------|-------------------|---------------------|
-10--------------|---10-10--------10-|-12b14-10-12-10------|
------10h12--10--|---------12p10-----|---------------------|
----12-----------|-------------------|---------------------|
-----------------|-------------------|---------------------|

---------------------------|---------------------------|
---------------------------|----13----13---------------|
------10-12-10-12----12b14-|-12----12----12---10-------|
---12-------------12-------|---------------------12-12-|
---------------------------|---------------------------|
---------------------------|---------------------------|

-----------10---------|-13b-10---------------------|--------------------|
-----10-13----/15-----|--------10-13---------------|--------------------|
-/11------------------|--------------14
-10------|--------------------|
----------------------|-----------------------12---|-12-12----12--------|
----------------------|----------------------------|--------------------|
----------------------|----------------------------|--------------------|
ZZ Top - TV Dinners (Official Music Video)
Пожалуйста, войдите на сайт или зарегистрируйтесь, чтобы написать сообщение.
ZZ Top - Tush
Исполнитель
Название песни
Tush
---------------|------------|----------------|---------------|
---------------|-----5------|----------------|---------------|
----5---5-3----|-5---5-3----|----5---5-3-----|-5---5-3-------|
----5---5-3----|-5---5-3----|----5---5-3-----|-5---5-3-------|
---------------|------------|----------------|---------------|
3-3---3------3-|---3------1/|3-3---3-----3-3-|---3-------3-1/|

Ive

been up Ive been down take my word ---------------|-------------|----------------|--------------| ---------------|-----5-------|----------------|--------------| ----5---5-3----|-5---5-3-----|----5---5-3-----|---5---5-3----| ----5---5-3----|-5---5-3-----|----5---5-3-----|---5---5-3----| ---------------|-------------|----------------|--------------| 3-3---3------3-|---3-----3-1/|3-3---3-----3-1/|3-3--3-----3--| my way round I aint askin for much --------------|--------------|------------------------|-------------------| ---5----------|--------------|------------------------|-------------------| ---5---5-3----|---5---5-3----|------------------------|-------------------| ---5---5-3----|---5---5-3----|-------10----10---10----|-10----------------| --------------|--------------|-10-10-12-12-13---12-12-|-10-10-------------| -3---3------3-|-3---3------6-|-8--8-----------8-------|-8--8--0-0-1-1-2-2-| I said Lord take me downtown Im just lookin for some ----------------|---------------|-----------------|-----------------| tush. ----------------|---------------|-----------------|-----------------| ----5---5-3-----|-5---5-3---5---|-2-2-4-4-5-5-4---|-----------------| ----5---5-3-----|-5---5-3---5-0-|-0-0-0-0-0-0-0---|-5-5-7-7-5-5-7-0-| ----------------|---------------|-----------------|-3-3-3-3-3-3-3---| 3-3---3-----3-3-|---3-----------|-----------------|-----------------| Ive been bad...(into the second verse) ------------------|----------------| ------------------|----------------| ------------------|--------------0-| ------------------|---5-6-7------0-| ------7---8-8-7-7-|-5-3-4-5--------| -/3-3---3-3-3-3-3-|-3--------------| First solo: ----|------------------|-------------------|------------------------| ----|------------------|-------------------|-----------11/12--------| ----|-----12-12----12--|-12--12--12--12----|/12--12-----------------| -12p|0/12--------------|-----12------------|--------12--------12----| ----|------------------|-------------------|---------------------12-| ----|------------------|-------------------|------------------------| ---------------------------|---------------3-|-----------------| -11/12---------------------|----5--/5---5----|-----------------| ----------12----------12---|-5------/5-------|-5---3---5--/3/3-| -------12----12/12---------|--X--------5-----|---5---5---5-----| ---------------------------|-----------------|-----------------| ---------------------------|-----------------|-----------------| --------------------|---------------------|-------------------| ----/12-------------|---/12---------------|/7---6/7---------0-| -0--/12------3P0--3P|0--/12---------------|/7-----7---7-------| ----/12-------------|---/12---------12----|/7-------7---7-----| --------------------|---------------------|-------------------| --------------------|---------------------|-------------------| ------------------|----------------------|------------------| /5----------------|----------/11---------|------------------| /5---3---5--/3-/3p|0--/12--------12------|/10---------------| /5-5---0----------|--0----12----------12-|------------------| -----------5------|----------------------|------------------| ------------------|----------------------|------------------| --------------------------------|-------------------------------| -------12----12----12----12-12--|-------12-12-12-------12-------| --------------------------------|-------------------------------| -10/12----12----12----12--------|-10/12-------------10/12----12-| --------------------------------|-------------------------------| --------------------------------|-------------------------------| -------------------------------------|--------------------------| -------12----12----12-------12-------|-12---------10----12------| -------------------------------------|---------12-10-10-12-12---| -10/12----12----12-------10/12----12-|------10------------------| -------------------------------------|--------------------------| -------------------------------------|--------------------------| --------------------|----------------|-------------------------------| -/5---5----5----6---|----5--5--------|---------------/11-/11---------| -/5---------------6|5----------5--|-12-12-12----------12-------------| --------------------|--5-------------|------------12--------12-12----| --------------------|----------------|-------------------------------| --------------------|----------------|-------------------------------| ---------------------------|----------------19-------------| -------11-12------------20-|-20-20-208-------18------------| -12-----------12--17/19----|-------------19----------17/19-| ----12--------12-----------|-------------19----------------| ---------------------------|-------------------------------| ---------------------------|-------------------------------| -15-----------------------------|--------------------------| ---14-11/12-11/12---12----------|-12-12-12-----------------| -----------------------12-------|-12-12-12----12--12-------| -----------------------------12-|-------------12-----12----| --------------------------------|--------------------------| --------------------------------|--------------------------| Take me back... ------------------------| ------------------------| ---/12-----14------14/--| -9----------------------| ------------------------| ------------------------|
Zz top - Tush
Пожалуйста, войдите на сайт или зарегистрируйтесь, чтобы написать сообщение.